  0
SECTION
  2
HEADER
  9
$ACADVER
  1
AC1015
  9
$ACADMAINTVER
 70
     6
  9
$DWGCODEPAGE
  3
ANSI_1254
  9
$INSBASE
 10
0.0
 20
0.0
 30
0.0
  9
$EXTMIN
 10
0.0
 20
0.0
 30
0.0
  9
$EXTMAX
 10
279.4
 20
215.9
 30
0.0
  9
$LIMMIN
 10
0.0
 20
0.0
  9
$LIMMAX
 10
279.4
 20
215.9
  9
$ORTHOMODE
 70
     0
  9
$REGENMODE
 70
     1
  9
$FILLMODE
 70
     1
  9
$QTEXTMODE
 70
     0
  9
$MIRRTEXT
 70
     1
  9
$LTSCALE
 40
1.0
  9
$ATTMODE
 70
     1
  9
$TEXTSIZE
 40
3.5
  9
$TRACEWID
 40
1.0
  9
$TEXTSTYLE
  7
Standard
  9
$CLAYER
  8
0
  9
$CELTYPE
  6
ByLayer
  9
$CECOLOR
 62
   256
  9
$CELTSCALE
 40
1.0
  9
$DISPSILH
 70
     0
  9
$DIMSCALE
 40
1.0
  9
$DIMASZ
 40
3.5
  9
$DIMEXO
 40
1.0
  9
$DIMDLI
 40
3.75
  9
$DIMRND
 40
0.0
  9
$DIMDLE
 40
0.0
  9
$DIMEXE
 40
1.0
  9
$DIMTP
 40
0.0
  9
$DIMTM
 40
0.0
  9
$DIMTXT
 40
3.5
  9
$DIMCEN
 40
2.5
  9
$DIMTSZ
 40
0.0
  9
$DIMTOL
 70
     0
  9
$DIMLIM
 70
     0
  9
$DIMTIH
 70
     1
  9
$DIMTOH
 70
     1
  9
$DIMSE1
 70
     0
  9
$DIMSE2
 70
     0
  9
$DIMTAD
 70
     1
  9
$DIMZIN
 70
     0
  9
$DIMBLK
  1

  9
$DIMASO
 70
     1
  9
$DIMSHO
 70
     1
  9
$DIMPOST
  1

  9
$DIMAPOST
  1

  9
$DIMALT
 70
     0
  9
$DIMALTD
 70
     3
  9
$DIMALTF
 40
0.0393700787
  9
$DIMLFAC
 40
1.0
  9
$DIMTOFL
 70
     1
  9
$DIMTVP
 40
0.0
  9
$DIMTIX
 70
     0
  9
$DIMSOXD
 70
     0
  9
$DIMSAH
 70
     0
  9
$DIMBLK1
  1

  9
$DIMBLK2
  1

  9
$DIMSTYLE
  2
ISO-25
  9
$DIMCLRD
 70
     0
  9
$DIMCLRE
 70
     0
  9
$DIMCLRT
 70
     0
  9
$DIMTFAC
 40
1.0
  9
$DIMGAP
 40
1.524
  9
$DIMJUST
 70
     0
  9
$DIMSD1
 70
     0
  9
$DIMSD2
 70
     0
  9
$DIMTOLJ
 70
     0
  9
$DIMTZIN
 70
     0
  9
$DIMALTZ
 70
     0
  9
$DIMALTTZ
 70
     0
  9
$DIMUPT
 70
     0
  9
$DIMDEC
 70
     2
  9
$DIMTDEC
 70
     2
  9
$DIMALTU
 70
     2
  9
$DIMALTTD
 70
     3
  9
$DIMTXSTY
  7
Standard
  9
$DIMAUNIT
 70
     0
  9
$DIMADEC
 70
     2
  9
$DIMALTRND
 40
0.0
  9
$DIMAZIN
 70
     0
  9
$DIMDSEP
 70
    44
  9
$DIMATFIT
 70
     3
  9
$DIMFRAC
 70
     0
  9
$DIMLDRBLK
  1

  9
$DIMLUNIT
 70
     2
  9
$DIMLWD
 70
    -2
  9
$DIMLWE
 70
    -2
  9
$DIMTMOVE
 70
     0
  9
$LUNITS
 70
     2
  9
$LUPREC
 70
     2
  9
$SKETCHINC
 40
1.0
  9
$FILLETRAD
 40
10.0
  9
$AUNITS
 70
     0
  9
$AUPREC
 70
     2
  9
$MENU
  1
.
  9
$ELEVATION
 40
0.0
  9
$PELEVATION
 40
0.0
  9
$THICKNESS
 40
0.0
  9
$LIMCHECK
 70
     0
  9
$CHAMFERA
 40
0.0
  9
$CHAMFERB
 40
0.0
  9
$CHAMFERC
 40
0.0
  9
$CHAMFERD
 40
0.0
  9
$SKPOLY
 70
     0
  9
$TDCREATE
 40
2458985.706098021
  9
$TDUCREATE
 40
2458985.581098021
  9
$TDUPDATE
 40
2458985.706098322
  9
$TDUUPDATE
 40
2458985.581098322
  9
$TDINDWG
 40
0.0000000116
  9
$TDUSRTIMER
 40
0.0000000116
  9
$USRTIMER
 70
     1
  9
$ANGBASE
 50
0.0
  9
$ANGDIR
 70
     0
  9
$PDMODE
 70
     0
  9
$PDSIZE
 40
-1.0
  9
$PLINEWID
 40
0.0
  9
$SPLFRAME
 70
     0
  9
$SPLINETYPE
 70
     6
  9
$SPLINESEGS
 70
     8
  9
$HANDSEED
  5
F1
  9
$SURFTAB1
 70
     6
  9
$SURFTAB2
 70
     6
  9
$SURFTYPE
 70
     6
  9
$SURFU
 70
     6
  9
$SURFV
 70
     6
  9
$UCSBASE
  2

  9
$UCSNAME
  2

  9
$UCSORG
 10
0.0
 20
0.0
 30
0.0
  9
$UCSXDIR
 10
1.0
 20
0.0
 30
0.0
  9
$UCSYDIR
 10
0.0
 20
1.0
 30
0.0
  9
$UCSORTHOREF
  2

  9
$UCSORTHOVIEW
 70
     0
  9
$UCSORGTOP
 10
0.0
 20
0.0
 30
0.0
  9
$UCSORGBOTTOM
 10
0.0
 20
0.0
 30
0.0
  9
$UCSORGLEFT
 10
0.0
 20
0.0
 30
0.0
  9
$UCSORGRIGHT
 10
0.0
 20
0.0
 30
0.0
  9
$UCSORGFRONT
 10
0.0
 20
0.0
 30
0.0
  9
$UCSORGBACK
 10
0.0
 20
0.0
 30
0.0
  9
$PUCSBASE
  2

  9
$PUCSNAME
  2

  9
$PUCSORG
 10
0.0
 20
0.0
 30
0.0
  9
$PUCSXDIR
 10
1.0
 20
0.0
 30
0.0
  9
$PUCSYDIR
 10
0.0
 20
1.0
 30
0.0
  9
$PUCSORTHOREF
  2

  9
$PUCSORTHOVIEW
 70
     0
  9
$PUCSORGTOP
 10
0.0
 20
0.0
 30
0.0
  9
$PUCSORGBOTTOM
 10
0.0
 20
0.0
 30
0.0
  9
$PUCSORGLEFT
 10
0.0
 20
0.0
 30
0.0
  9
$PUCSORGRIGHT
 10
0.0
 20
0.0
 30
0.0
  9
$PUCSORGFRONT
 10
0.0
 20
0.0
 30
0.0
  9
$PUCSORGBACK
 10
0.0
 20
0.0
 30
0.0
  9
$USERI1
 70
     0
  9
$USERI2
 70
     0
  9
$USERI3
 70
     0
  9
$USERI4
 70
     0
  9
$USERI5
 70
     0
  9
$USERR1
 40
0.0
  9
$USERR2
 40
0.0
  9
$USERR3
 40
0.0
  9
$USERR4
 40
0.0
  9
$USERR5
 40
0.0
  9
$WORLDVIEW
 70
     1
  9
$SHADEDGE
 70
     3
  9
$SHADEDIF
 70
    70
  9
$TILEMODE
 70
     1
  9
$MAXACTVP
 70
    64
  9
$PINSBASE
 10
0.0
 20
0.0
 30
0.0
  9
$PLIMCHECK
 70
     0
  9
$PEXTMIN
 10
1.0000000000E+20
 20
1.0000000000E+20
 30
1.0000000000E+20
  9
$PEXTMAX
 10
-1.0000000000E+20
 20
-1.0000000000E+20
 30
-1.0000000000E+20
  9
$PLIMMIN
 10
0.0
 20
0.0
  9
$PLIMMAX
 10
420.0
 20
297.0
  9
$UNITMODE
 70
     0
  9
$VISRETAIN
 70
     1
  9
$PLINEGEN
 70
     0
  9
$PSLTSCALE
 70
     1
  9
$TREEDEPTH
 70
  3020
  9
$CMLSTYLE
  2
Standard
  9
$CMLJUST
 70
     0
  9
$CMLSCALE
 40
20.0
  9
$PROXYGRAPHICS
 70
     1
  9
$MEASUREMENT
 70
     1
  9
$CELWEIGHT
370
    -1
  9
$ENDCAPS
280
     0
  9
$JOINSTYLE
280
     0
  9
$LWDISPLAY
290
     1
  9
$INSUNITS
 70
     4
  9
$HYPERLINKBASE
  1

  9
$STYLESHEET
  1

  9
$XEDIT
290
     1
  9
$CEPSNTYPE
380
     0
  9
$PSTYLEMODE
290
     1
  9
$FINGERPRINTGUID
  2
{2bbd5ed8-4fc8-4e1d-8754-1be9cd333589}
  9
$VERSIONGUID
  2
{FAEB1C32-E019-11D5-929B-00C0DF256EC4}
  9
$EXTNAMES
290
     1
  9
$PSVPSCALE
 40
0.0
  9
$OLESTARTUP
290
     0
  0
ENDSEC
  0
SECTION
  2
CLASSES
  0
CLASS
  1
ACDBDICTIONARYWDFLT
  2
AcDbDictionaryWithDefault
  3
ObjectDBX Classes
 90
        0
280
     0
281
     0
  0
CLASS
  1
VISUALSTYLE
  2
AcDbVisualStyle
  3
ObjectDBX Classes
 90
     4095
280
     0
281
     0
  0
CLASS
  1
MATERIAL
  2
AcDbMaterial
  3
ObjectDBX Classes
 90
     1153
280
     0
281
     0
  0
CLASS
  1
SCALE
  2
AcDbScale
  3
ObjectDBX Classes
 90
     1153
280
     0
281
     0
  0
CLASS
  1
TABLESTYLE
  2
AcDbTableStyle
  3
ObjectDBX Classes
 90
     4095
280
     0
281
     0
  0
CLASS
  1
MLEADERSTYLE
  2
AcDbMLeaderStyle
  3
ACDB_MLEADERSTYLE_CLASS
 90
     4095
280
     0
281
     0
  0
CLASS
  1
SUN
  2
AcDbSun
  3
SCENEOE
 90
     1153
280
     0
281
     0
  0
CLASS
  1
ACDBPLACEHOLDER
  2
AcDbPlaceHolder
  3
ObjectDBX Classes
 90
        0
280
     0
281
     0
  0
CLASS
  1
LAYOUT
  2
AcDbLayout
  3
ObjectDBX Classes
 90
        0
280
     0
281
     0
  0
ENDSEC
  0
SECTION
  2
TABLES
  0
TABLE
  2
VPORT
  5
8
330
0
100
AcDbSymbolTable
 70
     1
  0
VPORT
  5
29
330
8
100
AcDbSymbolTableRecord
100
AcDbViewportTableRecord
  2
*Active
 70
     0
 10
0.0
 20
0.0
 11
1.0
 21
1.0
 12
139.7
 22
107.95
 13
0.0
 23
0.0
 14
10.0
 24
10.0
 15
10.0
 25
10.0
 16
0.0
 26
0.0
 36
1.0
 17
0.0
 27
0.0
 37
0.0
 40
215.9
 41
1.2941176471
 42
50.0
 43
0.0
 44
0.0
 50
0.0
 51
0.0
 71
     0
 72
  2000
 73
     1
 74
     3
 75
     0
 76
     0
 77
     0
 78
     0
281
     0
 65
     1
110
0.0
120
0.0
130
0.0
111
1.0
121
0.0
131
0.0
112
0.0
122
1.0
132
0.0
 79
     0
146
0.0
  0
ENDTAB
  0
TABLE
  2
LTYPE
  5
5
330
0
100
AcDbSymbolTable
 70
     6
  0
LTYPE
  5
14
330
5
100
AcDbSymbolTableRecord
100
AcDbLinetypeTableRecord
  2
ByBlock
 70
     0
  3

 72
    65
 73
     0
 40
0.0
  0
LTYPE
  5
15
330
5
100
AcDbSymbolTableRecord
100
AcDbLinetypeTableRecord
  2
ByLayer
 70
     0
  3

 72
    65
 73
     0
 40
0.0
  0
LTYPE
  5
16
330
5
100
AcDbSymbolTableRecord
100
AcDbLinetypeTableRecord
  2
Continuous
 70
     0
  3
Solid line
 72
    65
 73
     0
 40
0.0
  0
LTYPE
  5
6E
330
5
100
AcDbSymbolTableRecord
100
AcDbLinetypeTableRecord
  2
HIDDEN
 70
     0
  3
Hidden __ __ __ __ __ __ __ __ __ __ __ __ __ __
 72
    65
 73
     2
 40
1.905
 49
1.27
 74
     0
 49
-0.635
 74
     0
  0
LTYPE
  5
6F
330
5
100
AcDbSymbolTableRecord
100
AcDbLinetypeTableRecord
  2
PHANTOM
 70
     0
  3
Phantom ______  __  __  ______  __  __  ______
 72
    65
 73
     6
 40
12.7
 49
6.35
 74
     0
 49
-1.27
 74
     0
 49
1.27
 74
     0
 49
-1.27
 74
     0
 49
1.27
 74
     0
 49
-1.27
 74
     0
  0
LTYPE
  5
70
330
5
100
AcDbSymbolTableRecord
100
AcDbLinetypeTableRecord
  2
CENTER
 70
     0
  3
Center ____ _ ____ _ ____ _ ____ _ ____ _ ____
 72
    65
 73
     4
 40
10.16
 49
6.35
 74
     0
 49
-1.27
 74
     0
 49
1.27
 74
     0
 49
-1.27
 74
     0
  0
LTYPE
  5
71
330
5
100
AcDbSymbolTableRecord
100
AcDbLinetypeTableRecord
  2
CENTERX2
 70
     0
  3
Center (2x) ________  __  ________  __  _____
 72
    65
 73
     4
 40
20.32
 49
12.7
 74
     0
 49
-2.54
 74
     0
 49
2.54
 74
     0
 49
-2.54
 74
     0
  0
LTYPE
  5
72
330
5
100
AcDbSymbolTableRecord
100
AcDbLinetypeTableRecord
  2
DOT2
 70
     0
  3
Dot (.5x) ........................................
 72
    65
 73
     2
 40
0.635
 49
0.0
 74
     0
 49
-0.635
 74
     0
  0
ENDTAB
  0
TABLE
  2
LAYER
  5
2
330
0
100
AcDbSymbolTable
 70
    17
  0
LAYER
  5
10
330
2
100
AcDbSymbolTableRecord
100
AcDbLayerTableRecord
  2
0
 70
     0
 62
     7
  6
Continuous
370
    -3
390
F
  0
LAYER
  5
73
330
2
100
AcDbSymbolTableRecord
100
AcDbLayerTableRecord
  2
FORMAT
 70
     0
 62
     7
  6
Continuous
370
    -3
390
F
  0
LAYER
  5
74
330
2
100
AcDbSymbolTableRecord
100
AcDbLayerTableRecord
  2
YARDIMCI_GEOMETRI
 70
     0
 62
    -6
  6
Continuous
290
     0
370
    -3
390
F
  0
LAYER
  5
75
330
2
100
AcDbSymbolTableRecord
100
AcDbLayerTableRecord
  2
SAYFA_CERCEVESI
 70
     0
 62
     7
  6
Continuous
370
    25
390
F
  0
LAYER
  5
76
330
2
100
AcDbSymbolTableRecord
100
AcDbLayerTableRecord
  2
ANTET
 70
     0
 62
     7
  6
Continuous
370
    -3
390
F
  0
LAYER
  5
77
330
2
100
AcDbSymbolTableRecord
100
AcDbLayerTableRecord
  2
OLCU
 70
     0
 62
   150
  6
Continuous
370
    -3
390
F
  0
LAYER
  5
78
330
2
100
AcDbSymbolTableRecord
100
AcDbLayerTableRecord
  2
METIN
 70
     0
 62
    96
  6
Continuous
370
    -3
390
F
  0
LAYER
  5
79
330
2
100
AcDbSymbolTableRecord
100
AcDbLayerTableRecord
  2
BALON
 70
     0
 62
     5
  6
Continuous
370
    -3
390
F
  0
LAYER
  5
7A
330
2
100
AcDbSymbolTableRecord
100
AcDbLayerTableRecord
  2
VURGU
 70
     0
 62
     7
  6
Continuous
370
    -3
390
F
  0
LAYER
  5
7B
330
2
100
AcDbSymbolTableRecord
100
AcDbLayerTableRecord
  2
SILIK
 70
     0
 62
     7
  6
Continuous
370
    -3
390
F
  0
LAYER
  5
7C
330
2
100
AcDbSymbolTableRecord
100
AcDbLayerTableRecord
  2
MODEL
 70
     0
 62
     7
  6
Continuous
370
    -3
390
F
  0
LAYER
  5
7D
330
2
100
AcDbSymbolTableRecord
100
AcDbLayerTableRecord
  2
DETAYLANDıRMA
 70
     0
 62
   190
  6
Continuous
370
    -3
390
F
  0
LAYER
  5
7E
330
2
100
AcDbSymbolTableRecord
100
AcDbLayerTableRecord
  2
TOLERANS
 70
     0
 62
   230
  6
Continuous
370
    -3
390
F
  0
LAYER
  5
7F
330
2
100
AcDbSymbolTableRecord
100
AcDbLayerTableRecord
  2
MERKEZ_CIZGILERI
 70
     0
 62
    30
  6
Continuous
370
    -3
390
F
  0
LAYER
  5
80
330
2
100
AcDbSymbolTableRecord
100
AcDbLayerTableRecord
  2
KESIT-DETAY_CIZGILERI
 70
     0
 62
     7
  6
Continuous
370
    -3
390
F
  0
LAYER
  5
81
330
2
100
AcDbSymbolTableRecord
100
AcDbLayerTableRecord
  2
\U+041E\U+0421\U+0415\U+0412\U+042B\U+0415
 70
     0
 62
     7
  6
Continuous
370
    -3
390
F
  0
LAYER
  5
82
330
2
100
AcDbSymbolTableRecord
100
AcDbLayerTableRecord
  2
\U+0412\U+041E\U+0414\U+042F\U+041D\U+042B\U+0415_\U+0417\U+041D\U+0410\U+041A\U+0418
 70
     0
 62
    11
  6
Continuous
370
    -3
390
F
  0
ENDTAB
  0
TABLE
  2
STYLE
  5
3
330
0
100
AcDbSymbolTable
 70
     1
  0
STYLE
  5
11
330
3
100
AcDbSymbolTableRecord
100
AcDbTextStyleTableRecord
  2
Standard
 70
     0
 40
0.0
 41
1.0
 50
0.0
 71
     0
 42
3.5
  3
txt
  4

  0
ENDTAB
  0
TABLE
  2
VIEW
  5
6
330
0
100
AcDbSymbolTable
 70
     0
  0
ENDTAB
  0
TABLE
  2
UCS
  5
7
330
0
100
AcDbSymbolTable
 70
     0
  0
ENDTAB
  0
TABLE
  2
APPID
  5
9
330
0
100
AcDbSymbolTable
 70
     1
  0
APPID
  5
12
330
9
100
AcDbSymbolTableRecord
100
AcDbRegAppTableRecord
  2
ACAD
 70
     0
  0
ENDTAB
  0
TABLE
  2
DIMSTYLE
  5
A
330
0
100
AcDbSymbolTable
 70
     1
100
AcDbDimStyleTable
  0
DIMSTYLE
105
27
330
A
100
AcDbSymbolTableRecord
100
AcDbDimStyleTableRecord
  2
ISO-25
 70
     0
 41
2.5
 42
0.625
 43
3.75
 44
1.25
 73
     0
 74
     0
 77
     1
 78
     8
140
2.5
141
2.5
143
0.0393700787
147
0.625
171
     3
172
     1
178
     0
271
     2
272
     2
274
     3
278
    44
283
     0
284
     8
340
11
  0
ENDTAB
  0
TABLE
  2
BLOCK_RECORD
  5
1
330
0
100
AcDbSymbolTable
 70
     2
  0
BLOCK_RECORD
  5
1F
330
1
100
AcDbSymbolTableRecord
100
AcDbBlockTableRecord
  2
*Model_Space
340
22
  0
BLOCK_RECORD
  5
1B
330
1
100
AcDbSymbolTableRecord
100
AcDbBlockTableRecord
  2
*Paper_Space
340
1E
  0
BLOCK_RECORD
  5
23
330
1
100
AcDbSymbolTableRecord
100
AcDbBlockTableRecord
  2
*Paper_Space0
340
26
  0
BLOCK_RECORD
  5
88
330
1
100
AcDbSymbolTableRecord
100
AcDbBlockTableRecord
  2
SW_CENTERMARKSYMBOL_0
340
0
102
{BLKREFS
331
93
102
}
  0
ENDTAB
  0
ENDSEC
  0
SECTION
  2
BLOCKS
  0
BLOCK
  5
20
330
1F
100
AcDbEntity
  8
0
100
AcDbBlockBegin
  2
*Model_Space
 70
     0
 10
0.0
 20
0.0
 30
0.0
  3
*Model_Space
  1

  0
ENDBLK
  5
21
330
1F
100
AcDbEntity
  8
0
100
AcDbBlockEnd
  0
BLOCK
  5
1C
330
1B
100
AcDbEntity
 67
     1
  8
0
100
AcDbBlockBegin
  2
*Paper_Space
 70
     0
 10
0.0
 20
0.0
 30
0.0
  3
*Paper_Space
  1

  0
ENDBLK
  5
1D
330
1B
100
AcDbEntity
 67
     1
  8
0
100
AcDbBlockEnd
  0
BLOCK
  5
24
330
23
100
AcDbEntity
  8
0
100
AcDbBlockBegin
  2
*Paper_Space0
 70
     0
 10
0.0
 20
0.0
 30
0.0
  3
*Paper_Space0
  1

  0
ENDBLK
  5
25
330
23
100
AcDbEntity
  8
0
100
AcDbBlockEnd
  0
BLOCK
  5
89
330
88
100
AcDbEntity
  8
0
100
AcDbBlockBegin
  2
SW_CENTERMARKSYMBOL_0
 70
     0
 10
0.0
 20
0.0
 30
0.0
  3
SW_CENTERMARKSYMBOL_0
  1

  0
LINE
  5
8B
330
88
100
AcDbEntity
  8
FORMAT
 62
     0
100
AcDbLine
 10
0.0
 20
0.0
 30
0.0
 11
0.0
 21
2.5
 31
0.0
  0
LINE
  5
8C
330
88
100
AcDbEntity
  8
FORMAT
 62
     0
100
AcDbLine
 10
0.0
 20
0.0
 30
0.0
 11
-2.5
 21
0.0
 31
0.0
  0
LINE
  5
8D
330
88
100
AcDbEntity
  8
FORMAT
 62
     0
100
AcDbLine
 10
0.0
 20
0.0
 30
0.0
 11
0.0
 21
-2.5
 31
0.0
  0
LINE
  5
8E
330
88
100
AcDbEntity
  8
FORMAT
 62
     0
100
AcDbLine
 10
0.0
 20
0.0
 30
0.0
 11
2.5
 21
0.0
 31
0.0
  0
LINE
  5
8F
330
88
100
AcDbEntity
  8
FORMAT
 62
     0
100
AcDbLine
 10
0.0
 20
5.0
 30
0.0
 11
0.0
 21
127.5
 31
0.0
  0
LINE
  5
90
330
88
100
AcDbEntity
  8
FORMAT
 62
     0
100
AcDbLine
 10
-5.0
 20
0.0
 30
0.0
 11
-127.5
 21
0.0
 31
0.0
  0
LINE
  5
91
330
88
100
AcDbEntity
  8
FORMAT
 62
     0
100
AcDbLine
 10
0.0
 20
-5.0
 30
0.0
 11
0.0
 21
-127.5
 31
0.0
  0
LINE
  5
92
330
88
100
AcDbEntity
  8
FORMAT
 62
     0
100
AcDbLine
 10
5.0
 20
0.0
 30
0.0
 11
127.5
 21
0.0
 31
0.0
  0
ENDBLK
  5
8A
330
88
100
AcDbEntity
  8
0
100
AcDbBlockEnd
  0
ENDSEC
  0
SECTION
  2
ENTITIES
  0
CIRCLE
  5
83
330
1F
100
AcDbEntity
  8
0
  6
Continuous
 62
     7
370
    25
100
AcDbCircle
 10
130.6810329512
 20
112.0420513222
 30
0.0
 40
125.0
  0
CIRCLE
  5
84
330
1F
100
AcDbEntity
  8
0
  6
Continuous
 62
     7
370
    25
100
AcDbCircle
 10
130.6810329512
 20
112.0420513222
 30
0.0
 40
110.2
  0
CIRCLE
  5
85
330
1F
100
AcDbEntity
  8
0
  6
Continuous
 62
     7
370
    25
100
AcDbCircle
 10
130.6810329512
 20
112.0420513222
 30
0.0
 40
109.3506960327195
  0
CIRCLE
  5
86
330
1F
100
AcDbEntity
  8
0
  6
Continuous
 62
     7
370
    25
100
AcDbCircle
 10
130.6810329512
 20
112.0420513222
 30
0.0
 40
71.34930396728056
  0
CIRCLE
  5
87
330
1F
100
AcDbEntity
  8
0
  6
Continuous
 62
     7
370
    25
100
AcDbCircle
 10
130.6810329512
 20
112.0420513222
 30
0.0
 40
70.50000000000003
  0
INSERT
  5
93
330
1F
100
AcDbEntity
  8
FORMAT
 62
     7
100
AcDbBlockReference
  2
SW_CENTERMARKSYMBOL_0
 10
130.6810329512
 20
112.0420513222
 30
0.0
  0
ARC
  5
94
330
1F
100
AcDbEntity
  8
0
  6
Continuous
 62
     7
370
    25
100
AcDbCircle
 10
-235.8889246545
 20
235.0420513222
 30
0.0
 40
2.000000000000069
100
AcDbArc
 50
56.1130405359
 51
90.0
  0
ARC
  5
95
330
1F
100
AcDbEntity
  8
0
  6
Continuous
 62
     7
370
    25
100
AcDbCircle
 10
-235.8889246545
 20
-10.9579486778
 30
0.0
 40
2.000000000000052
100
AcDbArc
 50
270.0
 51
303.8869594641
  0
LINE
  5
96
330
1F
100
AcDbEntity
  8
0
  6
Continuous
 62
     7
370
    25
100
AcDbLine
 10
-235.8889237289
 20
237.0420513222
 30
0.0
 11
-364.2796252166
 21
237.0420513222
 31
0.0
  0
LINE
  5
97
330
1F
100
AcDbEntity
  8
0
  6
Continuous
 62
     7
370
    25
100
AcDbLine
 10
-364.2796252166
 20
-12.9579486778
 30
0.0
 11
-235.8889237289
 21
-12.9579486778
 31
0.0
  0
LINE
  5
98
330
1F
100
AcDbEntity
  8
0
  6
Continuous
 62
     7
370
    25
100
AcDbLine
 10
-234.7738120948
 20
-12.6182245543
 30
0.0
 11
-168.7854279076
 21
31.7023289869
 31
0.0
  0
LINE
  5
99
330
1F
100
AcDbEntity
  8
0
  6
Continuous
 62
     7
370
    25
100
AcDbLine
 10
-168.7854279076
 20
192.3817736576
 30
0.0
 11
-234.7738120948
 21
236.7023271987
 31
0.0
  0
ARC
  5
9A
330
1F
100
AcDbEntity
  8
0
  6
Continuous
 62
     7
370
    25
100
AcDbCircle
 10
-167.6703153126
 20
194.0420513222
 30
0.0
 40
2.000000000000028
100
AcDbArc
 50
236.1130405359
 51
270.0
  0
ARC
  5
9B
330
1F
100
AcDbEntity
  8
0
  6
Continuous
 62
     7
370
    25
100
AcDbCircle
 10
-167.6703153126
 20
30.0420513222
 30
0.0
 40
2.0
100
AcDbArc
 50
90.0
 51
123.8869594641
  0
LINE
  5
9C
330
1F
100
AcDbEntity
  8
0
  6
Continuous
 62
     7
370
    25
100
AcDbLine
 10
-70.279625455
 20
192.0420495341
 30
0.0
 11
-167.6703144108
 21
192.0420495341
 31
0.0
  0
LINE
  5
9D
330
1F
100
AcDbEntity
  8
0
  6
Continuous
 62
     7
370
    25
100
AcDbLine
 10
-167.6703144108
 20
32.0420531104
 30
0.0
 11
-70.279625455
 21
32.0420531104
 31
0.0
  0
LINE
  5
9E
330
1F
100
AcDbEntity
  8
0
  6
Continuous
 62
     7
370
    25
100
AcDbLine
 10
-364.2796252166
 20
237.0420513222
 30
0.0
 11
-364.2796252166
 21
-12.9579486778
 31
0.0
  0
LINE
  5
9F
330
1F
100
AcDbEntity
  8
0
  6
Continuous
 62
     7
370
    25
100
AcDbLine
 10
-70.279625455
 20
192.0420495341
 30
0.0
 11
-70.279625455
 21
32.0420531104
 31
0.0
  0
LINE
  5
A0
330
1F
100
AcDbEntity
  8
0
  6
Continuous
 62
     1
370
    25
100
AcDbLine
 10
-234.7738120948
 20
236.7023271987
 30
0.0
 11
-234.7738120948
 21
-12.6182245543
 31
0.0
  0
LINE
  5
A1
330
1F
100
AcDbEntity
  8
0
  6
Continuous
 62
     1
370
    25
100
AcDbLine
 10
-235.8889237289
 20
237.0420513222
 30
0.0
 11
-235.8889237289
 21
-12.9579486778
 31
0.0
  0
LINE
  5
A2
330
1F
100
AcDbEntity
  8
0
  6
Continuous
 62
     1
370
    25
100
AcDbLine
 10
-168.7854279076
 20
192.3817736576
 30
0.0
 11
-168.7854279076
 21
31.7023289869
 31
0.0
  0
LINE
  5
A3
330
1F
100
AcDbEntity
  8
0
  6
Continuous
 62
     1
370
    25
100
AcDbLine
 10
-167.6703144108
 20
192.0420495341
 30
0.0
 11
-167.6703144108
 21
32.0420531104
 31
0.0
  0
ARC
  5
A4
330
1F
100
AcDbEntity
  8
0
  6
Continuous
 62
     7
370
    25
100
AcDbCircle
 10
253.6810329512
 20
442.1972173331
 30
0.0
 40
2.000000000000057
100
AcDbArc
 50
326.1130405359
 51
360.0
  0
ARC
  5
A5
330
1F
100
AcDbEntity
  8
0
  6
Continuous
 62
     7
370
    25
100
AcDbCircle
 10
7.6810329512
 20
442.1972173331
 30
0.0
 40
2.00000000000005
100
AcDbArc
 50
180.0
 51
213.8869594641
  0
LINE
  5
A6
330
1F
100
AcDbEntity
  8
0
  6
Continuous
 62
     7
370
    25
100
AcDbLine
 10
255.6810329512
 20
442.1972164075
 30
0.0
 11
255.6810329512
 21
570.5879178951
 31
0.0
  0
LINE
  5
A7
330
1F
100
AcDbEntity
  8
0
  6
Continuous
 62
     7
370
    25
100
AcDbLine
 10
5.6810329512
 20
570.5879178951
 30
0.0
 11
5.6810329512
 21
442.1972164075
 31
0.0
  0
LINE
  5
A8
330
1F
100
AcDbEntity
  8
0
  6
Continuous
 62
     7
370
    25
100
AcDbLine
 10
6.0207570746
 20
441.0821047734
 30
0.0
 11
50.3413106158
 21
375.0937205861
 31
0.0
  0
LINE
  5
A9
330
1F
100
AcDbEntity
  8
0
  6
Continuous
 62
     7
370
    25
100
AcDbLine
 10
211.0207552865
 20
375.0937205861
 30
0.0
 11
255.3413088277
 21
441.0821047734
 31
0.0
  0
ARC
  5
AA
330
1F
100
AcDbEntity
  8
0
  6
Continuous
 62
     7
370
    25
100
AcDbCircle
 10
212.6810329512
 20
373.9786079912
 30
0.0
 40
2.0
100
AcDbArc
 50
146.113040536
 51
180.0
  0
ARC
  5
AB
330
1F
100
AcDbEntity
  8
0
  6
Continuous
 62
     7
370
    25
100
AcDbCircle
 10
48.6810329512
 20
373.9786079912
 30
0.0
 40
2.0
100
AcDbArc
 50
0.0
 51
33.8869594641
  0
LINE
  5
AC
330
1F
100
AcDbEntity
  8
0
  6
Continuous
 62
     7
370
    25
100
AcDbLine
 10
210.681031163
 20
276.5879181336
 30
0.0
 11
210.681031163
 21
373.9786070894
 31
0.0
  0
LINE
  5
AD
330
1F
100
AcDbEntity
  8
0
  6
Continuous
 62
     7
370
    25
100
AcDbLine
 10
50.6810347393
 20
373.9786070894
 30
0.0
 11
50.6810347393
 21
276.5879181336
 31
0.0
  0
LINE
  5
AE
330
1F
100
AcDbEntity
  8
0
  6
Continuous
 62
     7
370
    25
100
AcDbLine
 10
255.6810329512
 20
570.5879178951
 30
0.0
 11
5.6810329512
 21
570.5879178951
 31
0.0
  0
LINE
  5
AF
330
1F
100
AcDbEntity
  8
0
  6
Continuous
 62
     7
370
    25
100
AcDbLine
 10
210.681031163
 20
276.5879181336
 30
0.0
 11
50.6810347393
 21
276.5879181336
 31
0.0
  0
LINE
  5
B0
330
1F
100
AcDbEntity
  8
0
  6
Continuous
 62
     1
370
    25
100
AcDbLine
 10
255.3413088277
 20
441.0821047734
 30
0.0
 11
6.0207570746
 21
441.0821047734
 31
0.0
  0
LINE
  5
B1
330
1F
100
AcDbEntity
  8
0
  6
Continuous
 62
     1
370
    25
100
AcDbLine
 10
255.6810329512
 20
442.1972164075
 30
0.0
 11
5.6810329512
 21
442.1972164075
 31
0.0
  0
LINE
  5
B2
330
1F
100
AcDbEntity
  8
0
  6
Continuous
 62
     1
370
    25
100
AcDbLine
 10
211.0207552865
 20
375.0937205861
 30
0.0
 11
50.3413106158
 21
375.0937205861
 31
0.0
  0
LINE
  5
B3
330
1F
100
AcDbEntity
  8
0
  6
Continuous
 62
     1
370
    25
100
AcDbLine
 10
210.681031163
 20
373.9786070894
 30
0.0
 11
50.6810347393
 21
373.9786070894
 31
0.0
  0
ARC
  5
B4
330
1F
100
AcDbEntity
  8
0
  6
Continuous
 62
     7
370
    25
100
AcDbCircle
 10
492.1976582051
 20
-10.9579486778
 30
0.0
 40
2.000000000000044
100
AcDbArc
 50
236.1130405359
 51
270.0
  0
ARC
  5
B5
330
1F
100
AcDbEntity
  8
0
  6
Continuous
 62
     7
370
    25
100
AcDbCircle
 10
492.1976582051
 20
235.0420513222
 30
0.0
 40
2.000000000000057
100
AcDbArc
 50
90.0
 51
123.8869594641
  0
LINE
  5
B6
330
1F
100
AcDbEntity
  8
0
  6
Continuous
 62
     7
370
    25
100
AcDbLine
 10
492.1976572795
 20
-12.9579486778
 30
0.0
 11
620.5883587672
 21
-12.9579486778
 31
0.0
  0
LINE
  5
B7
330
1F
100
AcDbEntity
  8
0
  6
Continuous
 62
     7
370
    25
100
AcDbLine
 10
620.5883587672
 20
237.0420513222
 30
0.0
 11
492.1976572795
 21
237.0420513222
 31
0.0
  0
LINE
  5
B8
330
1F
100
AcDbEntity
  8
0
  6
Continuous
 62
     7
370
    25
100
AcDbLine
 10
491.0825456454
 20
236.7023271987
 30
0.0
 11
425.0941614582
 21
192.3817736576
 31
0.0
  0
LINE
  5
B9
330
1F
100
AcDbEntity
  8
0
  6
Continuous
 62
     7
370
    25
100
AcDbLine
 10
425.0941614582
 20
31.7023289869
 30
0.0
 11
491.0825456454
 21
-12.6182245543
 31
0.0
  0
ARC
  5
BA
330
1F
100
AcDbEntity
  8
0
  6
Continuous
 62
     7
370
    25
100
AcDbCircle
 10
423.9790488632
 20
30.0420513222
 30
0.0
 40
2.000000000000028
100
AcDbArc
 50
56.1130405359
 51
90.0
  0
ARC
  5
BB
330
1F
100
AcDbEntity
  8
0
  6
Continuous
 62
     7
370
    25
100
AcDbCircle
 10
423.9790488632
 20
194.0420513222
 30
0.0
 40
2.000000000000046
100
AcDbArc
 50
270.0
 51
303.8869594641
  0
LINE
  5
BC
330
1F
100
AcDbEntity
  8
0
  6
Continuous
 62
     7
370
    25
100
AcDbLine
 10
326.5883590056
 20
32.0420531104
 30
0.0
 11
423.9790479614
 21
32.0420531104
 31
0.0
  0
LINE
  5
BD
330
1F
100
AcDbEntity
  8
0
  6
Continuous
 62
     7
370
    25
100
AcDbLine
 10
423.9790479614
 20
192.0420495341
 30
0.0
 11
326.5883590056
 21
192.0420495341
 31
0.0
  0
LINE
  5
BE
330
1F
100
AcDbEntity
  8
0
  6
Continuous
 62
     7
370
    25
100
AcDbLine
 10
620.5883587672
 20
112.0420513222
 30
0.0
 11
620.5883587672
 21
237.0420513222
 31
0.0
  0
LINE
  5
BF
330
1F
100
AcDbEntity
  8
0
  6
Continuous
 62
     7
370
    25
100
AcDbLine
 10
620.5883587672
 20
-12.9579486778
 30
0.0
 11
620.5883587672
 21
112.0420513222
 31
0.0
  0
LINE
  5
C0
330
1F
100
AcDbEntity
  8
0
  6
Continuous
 62
     7
370
    25
100
AcDbLine
 10
326.5883590056
 20
112.0420513222
 30
0.0
 11
326.5883590056
 21
192.0420495341
 31
0.0
  0
LINE
  5
C1
330
1F
100
AcDbEntity
  8
0
  6
Continuous
 62
     7
370
    25
100
AcDbLine
 10
326.5883590056
 20
32.0420531104
 30
0.0
 11
326.5883590056
 21
112.0420513222
 31
0.0
  0
LINE
  5
C2
330
1F
100
AcDbEntity
  8
0
  6
Continuous
 62
     1
370
    25
100
AcDbLine
 10
491.0825456454
 20
112.0420513222
 30
0.0
 11
491.0825456454
 21
236.7023271987
 31
0.0
  0
LINE
  5
C3
330
1F
100
AcDbEntity
  8
0
  6
Continuous
 62
     1
370
    25
100
AcDbLine
 10
491.0825456454
 20
-12.6182245543
 30
0.0
 11
491.0825456454
 21
112.0420513222
 31
0.0
  0
LINE
  5
C4
330
1F
100
AcDbEntity
  8
0
  6
Continuous
 62
     1
370
    25
100
AcDbLine
 10
492.1976572795
 20
112.0420513222
 30
0.0
 11
492.1976572795
 21
237.0420513222
 31
0.0
  0
LINE
  5
C5
330
1F
100
AcDbEntity
  8
0
  6
Continuous
 62
     1
370
    25
100
AcDbLine
 10
492.1976572795
 20
-12.9579486778
 30
0.0
 11
492.1976572795
 21
112.0420513222
 31
0.0
  0
LINE
  5
C6
330
1F
100
AcDbEntity
  8
0
  6
Continuous
 62
     1
370
    25
100
AcDbLine
 10
425.0941614582
 20
112.0420513222
 30
0.0
 11
425.0941614582
 21
192.3817736576
 31
0.0
  0
LINE
  5
C7
330
1F
100
AcDbEntity
  8
0
  6
Continuous
 62
     1
370
    25
100
AcDbLine
 10
425.0941614582
 20
31.7023289869
 30
0.0
 11
425.0941614582
 21
112.0420513222
 31
0.0
  0
LINE
  5
C8
330
1F
100
AcDbEntity
  8
0
  6
Continuous
 62
     1
370
    25
100
AcDbLine
 10
423.9790479614
 20
112.0420513222
 30
0.0
 11
423.9790479614
 21
192.0420495341
 31
0.0
  0
LINE
  5
C9
330
1F
100
AcDbEntity
  8
0
  6
Continuous
 62
     1
370
    25
100
AcDbLine
 10
423.9790479614
 20
32.0420531104
 30
0.0
 11
423.9790479614
 21
112.0420513222
 31
0.0
  0
ARC
  5
CA
330
1F
100
AcDbEntity
  8
0
  6
Continuous
 62
     7
370
    25
100
AcDbCircle
 10
7.6810329512
 20
-263.0827131838
 30
0.0
 40
2.000000000000044
100
AcDbArc
 50
146.1130405359
 51
180.0
  0
ARC
  5
CB
330
1F
100
AcDbEntity
  8
0
  6
Continuous
 62
     7
370
    25
100
AcDbCircle
 10
253.6810329512
 20
-263.0827131838
 30
0.0
 40
2.000000000000057
100
AcDbArc
 50
0.0
 51
33.8869594641
  0
LINE
  5
CC
330
1F
100
AcDbEntity
  8
0
  6
Continuous
 62
     7
370
    25
100
AcDbLine
 10
5.6810329512
 20
-263.0827122583
 30
0.0
 11
5.6810329512
 21
-391.4734137459
 31
0.0
  0
LINE
  5
CD
330
1F
100
AcDbEntity
  8
0
  6
Continuous
 62
     7
370
    25
100
AcDbLine
 10
255.6810329512
 20
-391.4734137459
 30
0.0
 11
255.6810329512
 21
-263.0827122583
 31
0.0
  0
LINE
  5
CE
330
1F
100
AcDbEntity
  8
0
  6
Continuous
 62
     7
370
    25
100
AcDbLine
 10
255.3413088277
 20
-261.9676006241
 30
0.0
 11
211.0207552865
 21
-195.9792164369
 31
0.0
  0
LINE
  5
CF
330
1F
100
AcDbEntity
  8
0
  6
Continuous
 62
     7
370
    25
100
AcDbLine
 10
50.3413106158
 20
-195.9792164369
 30
0.0
 11
6.0207570746
 21
-261.9676006241
 31
0.0
  0
ARC
  5
D0
330
1F
100
AcDbEntity
  8
0
  6
Continuous
 62
     7
370
    25
100
AcDbCircle
 10
48.6810329512
 20
-194.864103842
 30
0.0
 40
2.0
100
AcDbArc
 50
326.1130405359
 51
0.0
  0
ARC
  5
D1
330
1F
100
AcDbEntity
  8
0
  6
Continuous
 62
     7
370
    25
100
AcDbCircle
 10
212.6810329512
 20
-194.864103842
 30
0.0
 40
2.000000000000014
100
AcDbArc
 50
180.0
 51
213.8869594641
  0
LINE
  5
D2
330
1F
100
AcDbEntity
  8
0
  6
Continuous
 62
     7
370
    25
100
AcDbLine
 10
50.6810347393
 20
-97.4734139843
 30
0.0
 11
50.6810347393
 21
-194.8641029401
 31
0.0
  0
LINE
  5
D3
330
1F
100
AcDbEntity
  8
0
  6
Continuous
 62
     7
370
    25
100
AcDbLine
 10
210.681031163
 20
-194.8641029401
 30
0.0
 11
210.681031163
 21
-97.4734139843
 31
0.0
  0
LINE
  5
D4
330
1F
100
AcDbEntity
  8
0
  6
Continuous
 62
     7
370
    25
100
AcDbLine
 10
5.6810329512
 20
-391.4734137459
 30
0.0
 11
255.6810329512
 21
-391.4734137459
 31
0.0
  0
LINE
  5
D5
330
1F
100
AcDbEntity
  8
0
  6
Continuous
 62
     7
370
    25
100
AcDbLine
 10
50.6810347393
 20
-97.4734139843
 30
0.0
 11
210.681031163
 21
-97.4734139843
 31
0.0
  0
LINE
  5
D6
330
1F
100
AcDbEntity
  8
0
  6
Continuous
 62
     1
370
    25
100
AcDbLine
 10
6.0207570746
 20
-261.9676006241
 30
0.0
 11
255.3413088277
 21
-261.9676006241
 31
0.0
  0
LINE
  5
D7
330
1F
100
AcDbEntity
  8
0
  6
Continuous
 62
     1
370
    25
100
AcDbLine
 10
5.6810329512
 20
-263.0827122583
 30
0.0
 11
255.6810329512
 21
-263.0827122583
 31
0.0
  0
LINE
  5
D8
330
1F
100
AcDbEntity
  8
0
  6
Continuous
 62
     1
370
    25
100
AcDbLine
 10
50.3413106158
 20
-195.9792164369
 30
0.0
 11
211.0207552865
 21
-195.9792164369
 31
0.0
  0
LINE
  5
D9
330
1F
100
AcDbEntity
  8
0
  6
Continuous
 62
     1
370
    25
100
AcDbLine
 10
50.6810347393
 20
-194.8641029401
 30
0.0
 11
210.681031163
 21
-194.8641029401
 31
0.0
  0
LINE
  5
DA
330
1F
100
AcDbEntity
  8
0
  6
Continuous
 62
     7
370
    25
100
AcDbLine
 10
541.4677400312
 20
-112.3111438893
 30
0.0
 11
450.681804368
 21
-59.9015388007
 31
0.0
  0
LINE
  5
DB
330
1F
100
AcDbEntity
  8
0
  6
Continuous
 62
     7
370
    25
100
AcDbLine
 10
325.6919638977
 20
-276.413751049
 30
0.0
 11
416.477899561
 21
-328.8233561375
 31
0.0
  0
SPLINE
  5
DC
330
1F
100
AcDbEntity
  8
0
  6
Continuous
 62
     7
370
    25
100
AcDbSpline
210
0.0
220
0.0
230
1.0
 70
     8
 71
     3
 72
    13
 73
     9
 74
     0
 42
0.000000001
 43
0.00000001
 40
0.0
 40
0.0
 40
0.0
 40
0.0
 40
0.0774041638696417
 40
0.2795015259813707
 40
0.4812055360823398
 40
0.6824860785640964
 40
0.8833404097116675
 40
1.0
 40
1.0
 40
1.0
 40
1.0
 10
559.2721822762377
 20
-131.1956340753702
 30
0.0
 10
559.0435603602452
 20
-130.7551451283058
 30
0.0
 10
558.2180211231022
 20
-129.1645674807032
 30
0.0
 10
556.6017836244685
 20
-126.6355221227536
 30
0.0
 10
554.4346886783935
 20
-123.6148766003021
 30
0.0
 10
552.0760985241028
 20
-120.8410003198768
 30
0.0
 10
549.9290707796148
 20
-118.6133052554398
 30
0.0
 10
548.5036947101148
 20
-117.4083392618188
 30
0.0
 10
547.9799892060454
 20
-116.9656158735293
 30
0.0
  0
SPLINE
  5
DD
330
1F
100
AcDbEntity
  8
0
  6
Continuous
 62
     7
370
    25
100
AcDbSpline
210
0.0
220
0.0
230
1.0
 70
     8
 71
     3
 72
    13
 73
     9
 74
     0
 42
0.000000001
 43
0.00000001
 40
0.0
 40
0.0
 40
0.0
 40
0.0
 40
0.1227974246226791
 40
0.3142378390029001
 40
0.5059797004246795
 40
0.6980847748819384
 40
0.8905815685074444
 40
1.0
 40
1.0
 40
1.0
 40
1.0
 10
424.0006391852045
 20
-332.2197381661295
 30
0.0
 10
424.7137732056796
 20
-332.4684843242043
 30
0.0
 10
426.5386786888532
 20
-333.1050241817292
 30
0.0
 10
429.6105624735191
 20
-333.8392776367948
 30
0.0
 10
433.1905297210089
 20
-334.4580097941501
 30
0.0
 10
436.8835052471518
 20
-334.7955936563064
 30
0.0
 10
440.1128969424867
 20
-334.9031938327389
 30
0.0
 10
442.1398790438352
 20
-334.7927101736915
 30
0.0
 10
442.8744865884078
 20
-334.7526693023715
 30
0.0
  0
LINE
  5
DE
330
1F
100
AcDbEntity
  8
0
  6
Continuous
 62
     7
370
    25
100
AcDbLine
 10
454.5216272459
 20
-333.1212799325
 30
0.0
 11
510.1559480177
 21
-320.2034312329
 31
0.0
  0
LINE
  5
DF
330
1F
100
AcDbEntity
  8
0
  6
Continuous
 62
     7
370
    25
100
AcDbLine
 10
580.8497065475
 20
-197.7449814842
 30
0.0
 11
564.214608858
 21
-143.1068788946
 31
0.0
  0
LINE
  5
E0
330
1F
100
AcDbEntity
  8
0
  6
Continuous
 62
     7
370
    25
100
AcDbLine
 10
636.0730257406
 20
-218.8857303193
 30
0.0
 11
576.8829031175
 21
-184.7159998522
 31
0.0
  0
LINE
  5
E1
330
1F
100
AcDbEntity
  8
0
  6
Continuous
 62
     7
370
    25
100
AcDbLine
 10
496.8894069025
 20
-323.2838137444
 30
0.0
 11
556.0795295256
 21
-357.4535442116
 31
0.0
  0
ARC
  5
E2
330
1F
100
AcDbEntity
  8
0
  6
Continuous
 62
     7
370
    25
100
AcDbCircle
 10
520.3855741647
 20
-148.7893145979
 30
0.0
 40
42.13210955869347
100
AcDbArc
 50
49.4070939821
 51
59.9746977569
  0
ARC
  5
E3
330
1F
100
AcDbEntity
  8
0
  6
Continuous
 62
     7
370
    25
100
AcDbCircle
 10
437.5033879321
 20
-292.3726247622
 30
0.0
 40
42.08000688020101
100
AcDbArc
 50
240.0228184104
 51
250.9348970126
  0
LWPOLYLINE
  5
E4
330
1F
100
AcDbEntity
  8
0
  6
Continuous
 62
     7
370
    25
100
AcDbPolyline
 90
      126
 70
   128
 43
0.0
 10
299.7985364845
 20
-219.1831519137
 10
299.9101729495
 20
-213.9903886851
 10
300.24480839
 20
-208.6818453734
 10
300.8015893322
 20
-203.2709357035
 10
301.5791143936
 20
-197.7713273436
 10
302.5754184772
 20
-192.1969114848
 10
303.7879833088
 20
-186.5617701427
 10
305.2137479737
 20
-180.8801388954
 10
306.8491141845
 20
-175.1663688609
 10
308.6899410135
 20
-169.4348962782
 10
310.7315870389
 20
-163.7001938415
 10
312.9688892719
 20
-157.9767554891
 10
315.3962000346
 20
-152.2790294859
 10
318.0073869607
 20
-146.6214184238
 10
320.7958487999
 20
-141.01820926
 10
323.754552297
 20
-135.48355507
 10
326.8760163864
 20
-130.0314415852
 10
330.1523543389
 20
-124.6756385278
 10
333.5752948357
 20
-119.4296691936
 10
337.136187236
 20
-114.3067952437
 10
340.826038456
 20
-109.319952829
 10
344.6355287738
 20
-104.4817373822
 10
348.555032903
 20
-99.8043732018
 10
352.5746489683
 20
-95.2996784728
 10
356.6842274817
 20
-90.9790302886
 10
360.8733818793
 20
-86.8533342334
 10
365.1315333021
 20
-82.9330289492
 10
369.4479264012
 20
-79.228004007
 10
373.8116543624
 20
-75.7476219631
 10
378.2116944678
 20
-72.5006734947
 10
382.6369337788
 20
-69.495368657
 10
387.0761925969
 20
-66.7392929214
 10
391.5182569792
 20
-64.2394066555
 10
395.9519062328
 20
-62.0020231676
 10
400.365940409
 20
-60.0328050016
 10
404.7492087029
 20
-58.336717124
 10
409.0906396642
 20
-56.9180459857
 10
413.3792645755
 20
-55.7803738585
 10
417.6042543311
 20
-54.9265757972
 10
421.7549312902
 20
-54.3588127956
 10
425.8208114242
 20
-54.0785135404
 10
429.7916267073
 20
-54.0863919031
 10
433.6573435553
 20
-54.3824180446
 10
437.4082023385
 20
-54.9658503585
 10
441.0347173819
 20
-55.8352233029
 10
444.527737551
 20
-56.9883245932
 10
447.878433081
 20
-58.4222514745
 10
451.0783482605
 20
-60.1333803081
 10
454.1193908946
 20
-62.1173848218
 10
456.99387972
 20
-64.3692574072
 10
459.6945602105
 20
-66.8833121628
 10
462.2146045767
 20
-69.6531909784
 10
464.5476486444
 20
-72.6719030819
 10
466.6877971231
 20
-75.9318189563
 10
468.6296446796
 20
-79.4247068441
 10
470.3682917428
 20
-83.1417388323
 10
471.8993392352
 20
-87.0735273543
 10
473.2189201836
 20
-91.2101464854
 10
474.3237049869
 20
-95.5411380277
 10
475.2109014164
 20
-100.0555647418
 10
475.8782651524
 20
-104.7420255574
 10
476.324110321
 20
-109.5886806697
 10
476.5473200307
 20
-114.5832825287
 10
476.5473200307
 20
-119.7132195642
 10
476.324110321
 20
-124.9655338685
 10
475.8782651524
 20
-130.3269508554
 10
475.2109014164
 20
-135.7839334397
 10
474.3237049869
 20
-141.3226953477
 10
473.2189201836
 20
-146.9292442728
 10
471.8993392352
 20
-152.5894191372
 10
470.3682917428
 20
-158.2889174672
 10
468.6296446796
 20
-164.0133486258
 10
466.6877971231
 20
-169.7482459798
 10
464.5476486444
 20
-175.4791246919
 10
462.2146045767
 20
-181.1915121394
 10
459.6945602105
 20
-186.870972248
 10
456.99387972
 20
-192.5031663265
 10
454.1193908946
 20
-198.0738530668
 10
451.0783482605
 20
-203.5689706696
 10
447.878433081
 20
-208.9746429288
 10
444.527737551
 20
-214.277200523
 10
441.0347173819
 20
-219.4632570567
 10
437.4082023385
 20
-224.5197151457
 10
433.6573435553
 20
-229.4337968301
 10
429.7916267073
 20
-234.1930846412
 10
425.8208114242
 20
-238.7855687436
 10
421.7549312902
 20
-243.1996347688
 10
417.6042543311
 20
-247.4241413779
 10
413.3792645755
 20
-251.4484126556
 10
409.0906396642
 20
-255.2622814547
 10
404.7492087029
 20
-258.8561198099
 10
400.365940409
 20
-262.220845782
 10
395.9519062328
 20
-265.3479629972
 10
391.5182569792
 20
-268.229561977
 10
387.0761925969
 20
-270.8583740795
 10
382.6369337788
 20
-273.2277574768
 10
378.2116944678
 20
-275.3317251936
 10
373.8116543624
 20
-277.1649548962
 10
369.4479264012
 20
-278.7228259141
 10
365.1315333021
 20
-280.0014023652
 10
360.8733818793
 20
-280.9974540662
 10
356.6842274817
 20
-281.7084527265
 10
352.5746489683
 20
-282.1326228977
 10
348.555032903
 20
-282.2688780922
 10
344.6355287738
 20
-282.1168770543
 10
340.826038456
 20
-281.6770055072
 10
337.136187236
 20
-280.9503746299
 10
333.5752948357
 20
-279.9388195335
 10
330.1523543389
 20
-278.6448931752
 10
326.8760163864
 20
-277.0718693991
 10
323.754552297
 20
-275.2237216394
 10
320.7958487999
 20
-273.1051137945
 10
318.0073869607
 20
-270.7213941416
 10
315.3962000346
 20
-268.0785953322
 10
312.9688892719
 20
-265.1833826825
 10
310.7315870389
 20
-262.0430785046
 10
308.6899410135
 20
-258.6656103938
 10
306.8491141845
 20
-255.059511228
 10
305.2137479737
 20
-251.23389483
 10
303.7879833088
 20
-247.1984164254
 10
302.5754184772
 20
-242.9632726381
 10
301.5791143936
 20
-238.5391649893
 10
300.8015893322
 20
-233.9372679568
 10
300.24480839
 20
-229.1692038796
 10
299.9101729495
 20
-224.2470224235
 10
299.7985364845
 20
-219.1831519137
  0
LWPOLYLINE
  5
E5
330
1F
100
AcDbEntity
  8
0
  6
Continuous
 62
     7
370
    25
100
AcDbPolyline
 90
      118
 70
   128
 43
0.0
 10
310.2637148736
 20
-213.1417330249
 10
310.37605203
 20
-208.2469089565
 10
310.7127368609
 20
-203.2364973288
 10
311.272799989
 20
-198.124944184
 10
312.0546292973
 20
-192.9269875221
 10
313.0559646609
 20
-187.6576135732
 10
314.2739190208
 20
-182.3320191566
 10
315.7049889202
 20
-176.9655546478
 10
317.3450386996
 20
-171.5736950783
 10
319.189347912
 20
-166.1719838668
 10
321.2325902493
 20
-160.7760008772
 10
323.4688809578
 20
-155.4012985443
 10
325.8917715698
 20
-150.0633775387
 10
328.4942762451
 20
-144.777625932
 10
331.2688875763
 20
-139.5592857378
 10
334.2076081988
 20
-134.4234012036
 10
337.3019665962
 20
-129.3847853517
 10
340.5430381733
 20
-124.4579591438
 10
343.9214821347
 20
-119.6571241087
 10
347.4275493876
 20
-114.996139528
 10
351.0511404934
 20
-110.4884281451
 10
354.7818030337
 20
-106.1469898528
 10
358.6087790253
 20
-101.9843499864
 10
362.5210391649
 20
-98.012496969
 10
366.5072986338
 20
-94.2428975219
 10
370.5560658303
 20
-90.6864076957
 10
374.6556687115
 20
-87.3532941651
 10
378.7942844279
 20
-84.2531562844
 10
382.9599814701
 20
-81.3949382591
 10
387.1407495504
 20
-78.7868753932
 10
391.3245335998
 20
-76.4364987979
 10
395.4992714704
 20
-74.3505710409
 10
399.6529250506
 20
-72.5351168531
 10
403.7735196966
 20
-70.9953699472
 10
407.8491739482
 20
-69.7357619466
 10
411.8681367374
 20
-68.759931324
 10
415.8188189978
 20
-68.0706929861
 10
419.6898331777
 20
-67.6700276307
 10
423.4700156308
 20
-67.5590931556
 10
427.1484687625
 20
-67.7382124956
 10
430.7145821036
 20
-68.2068675402
 10
434.1580797257
 20
-68.963708264
 10
437.4690307776
 20
-70.0065466439
 10
440.6378889981
 20
-71.3323825186
 10
443.6555137894
 20
-72.9373914229
 10
446.5132123641
 20
-74.8169428431
 10
449.2027397448
 20
-76.9656184678
 10
451.7163409115
 20
-79.3772243597
 10
454.0467718746
 20
-82.04481225
 10
456.1873102117
 20
-84.9606825815
 10
458.1317866779
 20
-88.1164301397
 10
459.8745957423
 20
-91.5029592622
 10
461.4107113933
 20
-95.1104990503
 10
462.735697675
 20
-98.9286581228
 10
463.845745566
 20
-102.9464215778
 10
464.7376466375
 20
-107.1522042225
 10
465.4088352
 20
-111.5338817562
 10
465.8573724986
 20
-116.0788196667
 10
466.0819625176
 20
-120.7739158171
 10
466.0819625176
 20
-125.6056308658
 10
465.8573724986
 20
-130.5600331326
 10
465.4088352
 20
-135.6228411848
 10
464.7376466375
 20
-140.7794565378
 10
463.845745566
 20
-146.0150062404
 10
462.735697675
 20
-151.31440371
 10
461.4107113933
 20
-156.6623593807
 10
459.8745957423
 20
-162.0434605481
 10
458.1317866779
 20
-167.4421941854
 10
456.1873102117
 20
-172.8429864843
 10
454.0467718746
 20
-178.2302697744
 10
451.7163409115
 20
-183.5885159824
 10
449.2027397448
 20
-188.9022640075
 10
446.5132123641
 20
-194.1562018487
 10
443.6555137894
 20
-199.3351818128
 10
440.6378889981
 20
-204.4242661405
 10
437.4690307776
 20
-209.4087878393
 10
434.1580797257
 20
-214.2743689344
 10
430.7145821036
 20
-219.0069873859
 10
427.1484687625
 20
-223.592989254
 10
423.4700156308
 20
-228.0191601787
 10
419.6898331777
 20
-232.2727314629
 10
415.8188189978
 20
-236.3414439462
 10
411.8681367374
 20
-240.2135662549
 10
407.8491739482
 20
-243.8779312993
 10
403.7735196966
 20
-247.3239735351
 10
399.6529250506
 20
-250.5417639404
 10
395.4992714704
 20
-253.5220160969
 10
391.3245335998
 20
-256.2561380875
 10
387.1407495504
 20
-258.7362557358
 10
382.9599814701
 20
-260.9552049495
 10
378.7942844279
 20
-262.9065983537
 10
374.6556687115
 20
-264.5848044693
 10
370.5560658303
 20
-265.9849916742
 10
366.5072986338
 20
-267.1031089512
 10
362.5210391649
 20
-267.9359467213
 10
358.6087790253
 20
-268.481093114
 10
354.7818030337
 20
-268.7369856764
 10
351.0511404934
 20
-268.702878669
 10
347.4275493876
 20
-268.3788765241
 10
343.9214821347
 20
-267.7659110291
 10
340.5430381733
 20
-266.8657443637
 10
337.3019665962
 20
-265.6809797468
 10
334.2076081988
 20
-264.215034054
 10
331.2688875763
 20
-262.4721241291
 10
328.4942762451
 20
-260.4572819895
 10
325.8917715698
 20
-258.1763183222
 10
323.4688809578
 20
-255.6358072726
 10
321.2325902493
 20
-252.8430712332
 10
319.189347912
 20
-249.8061656319
 10
317.3450386996
 20
-246.5338485115
 10
315.7049889202
 20
-243.0355501118
 10
314.2739190208
 20
-239.321363739
 10
313.0559646609
 20
-235.4019894942
 10
312.0546292973
 20
-231.2887327474
 10
311.272799989
 20
-226.9934569907
 10
310.7127368609
 20
-222.5285389696
 10
310.37605203
 20
-217.9068553734
 10
310.2637148736
 20
-213.1417330249
  0
ARC
  5
E6
330
1F
100
AcDbEntity
  8
0
  6
Continuous
 62
     7
370
    25
100
AcDbCircle
 10
488.9380314174
 20
-166.905341416
 30
0.0
 40
78.8946457076044
100
AcDbArc
 50
0.8868091731
 51
26.7575285807
  0
LWPOLYLINE
  5
E7
330
1F
100
AcDbEntity
  8
0
  6
Continuous
 62
     7
370
    25
100
AcDbPolyline
 90
       10
 70
   128
 43
0.0
 10
477.6448396064
 20
-324.0051240164
 10
474.2264557437
 20
-325.8069971732
 10
469.8132434311
 20
-327.905244676
 10
465.4251605183
 20
-329.7335001721
 10
461.0732929437
 20
-331.2871342432
 10
456.7686311565
 20
-332.5622357192
 10
452.522054312
 20
-333.5555782165
 10
448.3442821976
 20
-334.2646478901
 10
444.2458752332
 20
-334.6876616849
 10
443.0700808927
 20
-334.7568340886
  0
ARC
  5
E8
330
1F
100
AcDbEntity
  8
0
  6
Continuous
 62
     7
370
    25
100
AcDbCircle
 10
528.1305934909
 20
-213.4635891524
 30
0.0
 40
55.01253955694379
100
AcDbArc
 50
5.6819617997
 51
16.6023529944
  0
ARC
  5
E9
330
1F
100
AcDbEntity
  8
0
  6
Continuous
 62
     7
370
    25
100
AcDbCircle
 10
497.848625966
 20
-268.0755944238
 30
0.0
 40
53.56100770598393
100
AcDbArc
 50
283.284200786
 51
293.5078820433
  0
LWPOLYLINE
  5
EA
330
1F
100
AcDbEntity
  8
0
  6
Continuous
 62
     7
370
    25
100
AcDbPolyline
 90
       52
 70
   128
 43
0.0
 10
636.0730257406
 20
-218.8857303193
 10
637.3129702188
 20
-219.6473498716
 10
639.6630890285
 20
-221.3688903122
 10
641.8411907443
 20
-223.3540640545
 10
643.8386774092
 20
-225.5950344819
 10
645.6476675625
 20
-228.0829612344
 10
647.2610225817
 20
-230.8080184616
 10
648.6723782927
 20
-233.7594571837
 10
649.8761607748
 20
-236.9256265863
 10
650.8676179708
 20
-240.2940348599
 10
651.6428354922
 20
-243.8513872252
 10
652.1987576924
 20
-247.5836429688
 10
652.5331929354
 20
-251.4760720994
 10
652.6448188636
 20
-255.5133135225
 10
652.5331929354
 20
-259.6794354991
 10
652.1987576924
 20
-263.957995342
 10
651.6428354922
 20
-268.3321051958
 10
650.8676179708
 20
-272.7845046596
 10
649.8761607748
 20
-277.2976250459
 10
648.6723782927
 20
-281.8536521184
 10
647.2610225817
 20
-286.4346074592
 10
645.6476675625
 20
-291.022404742
 10
643.8386774092
 20
-295.5989470681
 10
641.8411907443
 20
-300.1461665089
 10
639.6630890285
 20
-304.6461229636
 10
637.3129702188
 20
-309.0810528258
 10
634.8001092561
 20
-313.4334556727
 10
632.1344238207
 20
-317.6861535783
 10
629.3264321855
 20
-321.8223641135
 10
626.3872189717
 20
-325.8257596593
 10
623.3283798309
 20
-329.6805449684
 10
620.1619924694
 20
-333.3715043118
 10
616.9005468423
 20
-336.8840782785
 10
613.5569188119
 20
-340.2043972334
 10
610.1443016589
 20
-343.3193573576
 10
606.6761652526
 20
-346.2166624695
 10
603.1661961235
 20
-348.8848829555
 10
599.6282457675
 20
-351.3134916966
 10
596.0762776331
 20
-353.4929007562
 10
592.5243094987
 20
-355.414506812
 10
588.9863591428
 20
-357.0707286038
 10
585.4763900137
 20
-358.4550322139
 10
582.0082536073
 20
-359.5619521644
 10
578.5956364543
 20
-360.3871159372
 10
575.2520084239
 20
-360.9272677337
 10
571.9905627969
 20
-361.1802787354
 10
568.8241754354
 20
-361.145152423
 10
565.7653362945
 20
-360.8220276123
 10
562.8261230807
 20
-360.2121754097
 10
560.0181314455
 20
-359.3180030077
 10
557.3524460101
 20
-358.1430399943
 10
556.0795295256
 20
-357.4535442116
  0
LWPOLYLINE
  5
EB
330
1F
100
AcDbEntity
  8
0
  6
Continuous
 62
     1
370
    25
100
AcDbPolyline
 90
       60
 70
   128
 43
0.0
 10
547.8001038224
 20
-116.7962181626
 10
550.4804958737
 20
-119.2929172514
 10
553.0005402399
 20
-122.062796067
 10
555.3335843076
 20
-125.0815081704
 10
557.4737327863
 20
-128.3414240448
 10
559.4155803429
 20
-131.8343119326
 10
561.154227406
 20
-135.5513439209
 10
562.6852748984
 20
-139.4831324428
 10
564.0048558468
 20
-143.619751574
 10
565.1096406501
 20
-147.9507431163
 10
565.9968370796
 20
-152.4651698304
 10
566.6642008156
 20
-157.151630646
 10
567.1100459843
 20
-161.9982857582
 10
567.333255694
 20
-166.9928876173
 10
567.333255694
 20
-172.1228246527
 10
567.1100459843
 20
-177.3751389571
 10
566.6642008156
 20
-182.736555944
 10
565.9968370796
 20
-188.1935385282
 10
565.1096406501
 20
-193.7323004362
 10
564.0048558468
 20
-199.3388493614
 10
562.6852748984
 20
-204.9990242258
 10
561.154227406
 20
-210.6985225557
 10
559.4155803429
 20
-216.4229537144
 10
557.4737327863
 20
-222.1578510684
 10
555.3335843076
 20
-227.8887297804
 10
553.0005402399
 20
-233.6011172279
 10
550.4804958737
 20
-239.2805773365
 10
547.7798153832
 20
-244.9127714151
 10
544.9053265578
 20
-250.4834581553
 10
541.8642839238
 20
-255.9785757581
 10
538.6643687443
 20
-261.3842480174
 10
535.3136732142
 20
-266.6868056116
 10
531.8206530451
 20
-271.8728621453
 10
528.1941380017
 20
-276.9293202342
 10
524.4432792185
 20
-281.8434019187
 10
520.5775623705
 20
-286.6026897297
 10
516.6067470875
 20
-291.1951738322
 10
512.5408669534
 20
-295.6092398573
 10
508.3901899943
 20
-299.8337464664
 10
504.1652002388
 20
-303.8580177442
 10
499.8765753274
 20
-307.6718865432
 10
495.5351443661
 20
-311.2657248985
 10
491.1518760723
 20
-314.6304508705
 10
486.7378418961
 20
-317.7575680858
 10
482.3041926424
 20
-320.6391670655
 10
477.8621282601
 20
-323.2679791681
 10
473.4228694421
 20
-325.6373625654
 10
468.9976301311
 20
-327.7413302822
 10
464.5975900257
 20
-329.5745599848
 10
460.2338620644
 20
-331.1324310027
 10
455.9174689654
 20
-332.4110074538
 10
451.6593175426
 20
-333.4070591547
 10
447.470163145
 20
-334.1180578151
 10
443.3605846315
 20
-334.5422279862
 10
439.3409685662
 20
-334.6784831808
 10
435.4214644371
 20
-334.5264821429
 10
431.6119741192
 20
-334.0866105958
 10
427.9221228992
 20
-333.3599797185
 10
424.3612304989
 20
-332.3484246221
 10
423.7582776841
 20
-332.1444605673
  0
LWPOLYLINE
  5
EC
330
1F
100
AcDbEntity
  8
0
  6
Continuous
 62
     1
370
    25
100
AcDbPolyline
 90
       25
 70
   128
 43
0.0
 10
401.5567706378
 20
-249.0877842477
 10
402.1942996734
 20
-244.9635116017
 10
403.195635037
 20
-239.6941376527
 10
404.4135893969
 20
-234.3685432362
 10
405.8446592964
 20
-229.0020787273
 10
407.4847090757
 20
-223.6102191579
 10
409.3290182881
 20
-218.2085079463
 10
411.3722606254
 20
-212.8125249567
 10
413.608551334
 20
-207.4378226239
 10
416.031441946
 20
-202.0999016183
 10
418.6339466212
 20
-196.8141500116
 10
421.4085579524
 20
-191.5958098174
 10
424.347278575
 20
-186.4599252832
 10
427.4416369724
 20
-181.4213094313
 10
430.6827085494
 20
-176.4944832234
 10
434.0611525108
 20
-171.6936481883
 10
437.5672197637
 20
-167.0326636076
 10
441.1908108695
 20
-162.5249522247
 10
444.9214734098
 20
-158.1835139324
 10
448.7484494014
 20
-154.020874066
 10
452.660709541
 20
-150.0490210485
 10
456.6469690099
 20
-146.2794216015
 10
460.6957362064
 20
-142.7229317753
 10
464.7953390876
 20
-139.3898182447
 10
464.9566719554
 20
-139.2640315279
  0
LWPOLYLINE
  5
ED
330
1F
100
AcDbEntity
  8
0
  6
Continuous
 62
     1
370
    25
100
AcDbPolyline
 90
       35
 70
   128
 43
0.0
 10
567.8232272959
 20
-165.6842793641
 10
567.8816112178
 20
-167.5936858685
 10
567.8816112178
 20
-172.7096809575
 10
567.6590126374
 20
-177.9477174382
 10
567.2143791907
 20
-183.2945640699
 10
566.5488277691
 20
-188.7367162769
 10
565.6640442467
 20
-194.2604242879
 10
564.5622624063
 20
-199.8517368603
 10
563.2462639401
 20
-205.4965294175
 10
561.7193784489
 20
-211.1805390298
 10
559.9854623695
 20
-216.8894085198
 10
558.0488884375
 20
-222.6087229631
 10
555.9145562238
 20
-228.3240279409
 10
553.5878499885
 20
-234.0208873308
 10
551.0746544852
 20
-239.6849137272
 10
548.381318083
 20
-245.3017958142
 10
545.5146369613
 20
-250.8573470336
 10
542.4818603779
 20
-256.3375329627
 10
539.2906432543
 20
-261.7285108532
 10
535.9490567119
 20
-267.0166539675
 10
532.4655301204
 20
-272.1886215356
 10
528.8488669028
 20
-277.2313313799
 10
525.1082023886
 20
-282.1320633344
 10
521.2529932768
 20
-286.8784166577
 10
517.2929702211
 20
-291.458416493
 10
513.2381404639
 20
-295.8604880135
 10
509.0987430551
 20
-300.0735126913
 10
504.8852383158
 20
-304.0868465485
 10
500.6082670081
 20
-307.8903498109
 10
496.2786345302
 20
-311.474420367
 10
491.9072793065
 20
-314.8300059324
 10
487.505241177
 20
-317.9486162145
 10
483.0836419708
 20
-320.8223888804
 10
478.6536498618
 20
-323.4440553805
 10
477.6448396064
 20
-324.0051240164
  0
LWPOLYLINE
  5
EE
330
1F
100
AcDbEntity
  8
0
  6
Continuous
 62
     1
370
    25
100
AcDbPolyline
 90
       31
 70
   128
 43
0.0
 10
582.8728448381
 20
-208.0169915039
 10
583.1188191143
 20
-211.1097829422
 10
583.2309191946
 20
-215.1641686654
 10
583.1188191143
 20
-219.3479823865
 10
582.7829666836
 20
-223.6447091747
 10
582.2246789915
 20
-228.037396915
 10
581.4461687476
 20
-232.5087042191
 10
580.4505021351
 20
-237.0409878753
 10
579.2416093476
 20
-241.6163621651
 10
577.8242635158
 20
-246.2167680637
 10
576.2040543653
 20
-250.8240508045
 10
574.3873829489
 20
-255.4200267994
 10
572.3814089623
 20
-259.9865581595
 10
570.1940612816
 20
-264.5056226581
 10
567.8339615714
 20
-268.9593852077
 10
565.3104295535
 20
-273.3302708644
 10
562.6334250551
 20
-277.6010287015
 10
559.813508496
 20
-281.7548002478
 10
556.8618145466
 20
-285.7752016146
 10
553.7899862739
 20
-289.6463554291
 10
550.6101514336
 20
-293.3529927346
 10
547.3348566155
 20
-296.8804788395
 10
543.9770290485
 20
-300.2148962045
 10
540.5499212821
 20
-303.3430824605
 10
537.0670571864
 20
-306.2526920009
 10
533.5421825609
 20
-308.9322488295
 10
529.9892084997
 20
-311.3711670872
 10
526.4221567327
 20
-313.5598312759
 10
522.8551049656
 20
-315.4895973942
 10
519.3021309045
 20
-317.1528556702
 10
519.212784854
 20
-317.1913175833
  0
LWPOLYLINE
  5
EF
330
1F
100
AcDbEntity
  8
0
  6
Continuous
 62
     1
370
    25
100
AcDbPolyline
 90
       24
 70
   128
 43
0.0
 10
404.6335564335
 20
-246.6189013022
 10
404.7522999108
 20
-245.9106005772
 10
405.7459224012
 20
-240.6818361438
 10
406.9544885506
 20
-235.3972860705
 10
408.3745317808
 20
-230.0721775408
 10
410.0019427739
 20
-224.7218745615
 10
411.8320326933
 20
-219.3617958381
 10
413.8595331827
 20
-214.0073965241
 10
416.0785858302
 20
-208.6741195502
 10
418.4828053883
 20
-203.3773378351
 10
421.0652481637
 20
-198.1323269057
 10
423.8184805059
 20
-192.9541979832
 10
426.7345524658
 20
-187.8578949382
 10
429.8050610153
 20
-182.8581121673
 10
433.0211553162
 20
-177.9692550489
 10
436.3735577936
 20
-173.2054277781
 10
439.8526089166
 20
-168.5803588457
 10
443.4482724669
 20
-164.107385829
 10
447.1501803198
 20
-159.7994112895
 10
450.9476640542
 20
-155.6688480224
 10
454.8297707579
 20
-151.7276099324
 10
458.7853104425
 20
-147.9870603272
 10
462.8028744831
 20
-144.4579830207
 10
464.3573161107
 20
-143.1631016401
  0
LWPOLYLINE
  5
F0
330
1F
100
AcDbEntity
  8
0
  6
Continuous
 62
     1
370
    25
100
AcDbPolyline
 90
       40
 70
   128
 43
0.0
 10
579.4936896486
 20
-193.2911389978
 10
579.8067617077
 20
-194.0041829439
 10
581.0105441898
 20
-197.1703523465
 10
582.0020013858
 20
-200.5387606202
 10
582.7772189071
 20
-204.0961129854
 10
583.3331411074
 20
-207.8283687291
 10
583.6675763503
 20
-211.7207978596
 10
583.7792022786
 20
-215.7580392827
 10
583.6675763503
 20
-219.9241612593
 10
583.3331411074
 20
-224.2027211023
 10
582.7772189071
 20
-228.5768309561
 10
582.0020013858
 20
-233.0292304199
 10
581.0105441898
 20
-237.5423508062
 10
579.8067617077
 20
-242.0983778786
 10
578.3954059966
 20
-246.6793332195
 10
576.7820509774
 20
-251.2671305022
 10
574.9730608241
 20
-255.8436728283
 10
572.9755741592
 20
-260.3908922692
 10
570.7974724434
 20
-264.8908487239
 10
568.4473536337
 20
-269.325778586
 10
565.934492671
 20
-273.678181433
 10
563.2688072357
 20
-277.9308793386
 10
560.4608156005
 20
-282.0670898738
 10
557.5216023866
 20
-286.0704854195
 10
554.4627632458
 20
-289.9252707287
 10
551.2963758843
 20
-293.6162300721
 10
548.0349302573
 20
-297.1288040387
 10
544.6913022269
 20
-300.4491229936
 10
541.2786850738
 20
-303.5640831178
 10
537.8105486675
 20
-306.4613882297
 10
534.3005795384
 20
-309.1296087157
 10
530.7626291824
 20
-311.5582174569
 10
527.210661048
 20
-313.7376265165
 10
523.6586929137
 20
-315.6592325722
 10
520.1207425577
 20
-317.3154543641
 10
516.6107734286
 20
-318.6997579741
 10
513.1426370223
 20
-319.8066779246
 10
509.7300198692
 20
-320.6318416975
 10
506.3863918388
 20
-321.171993494
 10
505.6208970686
 20
-321.2564319063
  0
ENDSEC
  0
SECTION
  2
OBJECTS
  0
DICTIONARY
  5
C
330
0
100
AcDbDictionary
281
     1
  3
ACAD_GROUP
350
D
  3
ACAD_LAYOUT
350
1A
  3
ACAD_MLINESTYLE
350
17
  3
ACAD_PLOTSETTINGS
350
19
  3
ACAD_PLOTSTYLENAME
350
E
  3
ACAD_SCALELIST
350
47
  0
DICTIONARY
  5
D
102
{ACAD_REACTORS
330
C
102
}
330
C
100
AcDbDictionary
281
     1
  0
DICTIONARY
  5
1A
102
{ACAD_REACTORS
330
C
102
}
330
C
100
AcDbDictionary
281
     1
  3
Layout1
350
1E
  3
Layout2
350
26
  3
Model
350
22
  0
DICTIONARY
  5
17
102
{ACAD_REACTORS
330
C
102
}
330
C
100
AcDbDictionary
281
     1
  3
Standard
350
18
  0
DICTIONARY
  5
19
102
{ACAD_REACTORS
330
C
102
}
330
C
100
AcDbDictionary
281
     1
  0
ACDBDICTIONARYWDFLT
  5
E
102
{ACAD_REACTORS
330
C
102
}
330
C
100
AcDbDictionary
281
     1
  3
Normal
350
F
100
AcDbDictionaryWithDefault
340
F
  0
DICTIONARY
  5
47
102
{ACAD_REACTORS
330
C
102
}
330
C
100
AcDbDictionary
281
     1
  3
A0
350
48
  3
A1
350
49
  3
A2
350
4A
  3
A3
350
4B
  3
A4
350
4C
  3
A5
350
4D
  3
A6
350
4E
  3
A7
350
4F
  3
A8
350
50
  3
A9
350
51
  3
B0
350
52
  3
B1
350
53
  3
B2
350
54
  3
B3
350
55
  3
B4
350
56
  3
B5
350
57
  3
B6
350
58
  3
B7
350
59
  3
B8
350
5A
  3
B9
350
5B
  3
C0
350
5C
  3
C1
350
5D
  3
C2
350
5E
  3
C3
350
5F
  3
C4
350
60
  3
C5
350
61
  3
C6
350
62
  3
C7
350
63
  3
C8
350
64
  3
C9
350
65
  3
D0
350
66
  3
D1
350
67
  3
D2
350
68
  0
LAYOUT
  5
1E
102
{ACAD_REACTORS
330
1A
102
}
330
1A
100
AcDbPlotSettings
  1

  2
none_device
  4

  6

 40
0.0
 41
0.0
 42
0.0
 43
0.0
 44
0.0
 45
0.0
 46
0.0
 47
0.0
 48
0.0
 49
0.0
140
0.0
141
0.0
142
1.0
143
1.0
 70
   688
 72
     1
 73
     0
 74
     5
  7

 75
    16
147
1.0
148
0.0
149
0.0
100
AcDbLayout
  1
Layout1
 70
     1
 71
     1
 10
0.0
 20
0.0
 11
420.0
 21
297.0
 12
0.0
 22
0.0
 32
0.0
 14
1.0000000000E+20
 24
1.0000000000E+20
 34
1.0000000000E+20
 15
-1.0000000000E+20
 25
-1.0000000000E+20
 35
-1.0000000000E+20
146
0.0
 13
0.0
 23
0.0
 33
0.0
 16
1.0
 26
0.0
 36
0.0
 17
0.0
 27
1.0
 37
0.0
 76
     0
330
1B
  0
LAYOUT
  5
26
102
{ACAD_REACTORS
330
1A
102
}
330
1A
100
AcDbPlotSettings
  1

  2
none_device
  4

  6

 40
0.0
 41
0.0
 42
0.0
 43
0.0
 44
0.0
 45
0.0
 46
0.0
 47
0.0
 48
0.0
 49
0.0
140
0.0
141
0.0
142
1.0
143
1.0
 70
   688
 72
     1
 73
     0
 74
     5
  7

 75
    16
147
1.0
148
0.0
149
0.0
100
AcDbLayout
  1
Layout2
 70
     1
 71
     2
 10
0.0
 20
0.0
 11
0.0
 21
0.0
 12
0.0
 22
0.0
 32
0.0
 14
0.0
 24
0.0
 34
0.0
 15
0.0
 25
0.0
 35
0.0
146
0.0
 13
0.0
 23
0.0
 33
0.0
 16
1.0
 26
0.0
 36
0.0
 17
0.0
 27
1.0
 37
0.0
 76
     0
330
23
  0
LAYOUT
  5
22
102
{ACAD_REACTORS
330
1A
102
}
330
1A
100
AcDbPlotSettings
  1

  2
none_device
  4
Letter_(8.50_x_11.00_Inches)
  6

 40
6.35
 41
6.35
 42
6.35000508
 43
6.35000508
 44
215.9
 45
279.4
 46
0.0
 47
0.0
 48
0.0
 49
0.0
140
0.0
141
0.0
142
1.0
143
1.0
 70
  1712
 72
     1
 73
     0
 74
     0
  7

 75
     0
147
1.0
148
0.0
149
0.0
100
AcDbLayout
  1
Model
 70
     1
 71
     0
 10
0.0
 20
0.0
 11
279.4
 21
215.9
 12
0.0
 22
0.0
 32
0.0
 14
0.0
 24
0.0
 34
0.0
 15
279.4
 25
215.9
 35
0.0
146
0.0
 13
0.0
 23
0.0
 33
0.0
 16
1.0
 26
0.0
 36
0.0
 17
0.0
 27
1.0
 37
0.0
 76
     0
330
1F
331
29
  0
MLINESTYLE
  5
18
102
{ACAD_REACTORS
330
17
102
}
330
17
100
AcDbMlineStyle
  2
Standard
 70
     0
  3

 62
   256
 51
90.0
 52
90.0
 71
     2
 49
0.5
 62
   256
  6
BYLAYER
 49
-0.5
 62
   256
  6
BYLAYER
  0
ACDBPLACEHOLDER
  5
F
102
{ACAD_REACTORS
330
E
102
}
330
E
  0
SCALE
  5
48
102
{ACAD_REACTORS
330
47
102
}
330
47
100
AcDbScale
 70
     0
300
1:1
140
1.0
141
1.0
290
     1
  0
SCALE
  5
49
102
{ACAD_REACTORS
330
47
102
}
330
47
100
AcDbScale
 70
     0
300
1:2
140
1.0
141
2.0
290
     0
  0
SCALE
  5
4A
102
{ACAD_REACTORS
330
47
102
}
330
47
100
AcDbScale
 70
     0
300
1:4
140
1.0
141
4.0
290
     0
  0
SCALE
  5
4B
102
{ACAD_REACTORS
330
47
102
}
330
47
100
AcDbScale
 70
     0
300
1:5
140
1.0
141
5.0
290
     0
  0
SCALE
  5
4C
102
{ACAD_REACTORS
330
47
102
}
330
47
100
AcDbScale
 70
     0
300
1:8
140
1.0
141
8.0
290
     0
  0
SCALE
  5
4D
102
{ACAD_REACTORS
330
47
102
}
330
47
100
AcDbScale
 70
     0
300
1:10
140
1.0
141
10.0
290
     0
  0
SCALE
  5
4E
102
{ACAD_REACTORS
330
47
102
}
330
47
100
AcDbScale
 70
     0
300
1:16
140
1.0
141
16.0
290
     0
  0
SCALE
  5
4F
102
{ACAD_REACTORS
330
47
102
}
330
47
100
AcDbScale
 70
     0
300
1:20
140
1.0
141
20.0
290
     0
  0
SCALE
  5
50
102
{ACAD_REACTORS
330
47
102
}
330
47
100
AcDbScale
 70
     0
300
1:30
140
1.0
141
30.0
290
     0
  0
SCALE
  5
51
102
{ACAD_REACTORS
330
47
102
}
330
47
100
AcDbScale
 70
     0
300
1:40
140
1.0
141
40.0
290
     0
  0
SCALE
  5
52
102
{ACAD_REACTORS
330
47
102
}
330
47
100
AcDbScale
 70
     0
300
1:50
140
1.0
141
50.0
290
     0
  0
SCALE
  5
53
102
{ACAD_REACTORS
330
47
102
}
330
47
100
AcDbScale
 70
     0
300
1:100
140
1.0
141
100.0
290
     0
  0
SCALE
  5
54
102
{ACAD_REACTORS
330
47
102
}
330
47
100
AcDbScale
 70
     0
300
2:1
140
2.0
141
1.0
290
     0
  0
SCALE
  5
55
102
{ACAD_REACTORS
330
47
102
}
330
47
100
AcDbScale
 70
     0
300
4:1
140
4.0
141
1.0
290
     0
  0
SCALE
  5
56
102
{ACAD_REACTORS
330
47
102
}
330
47
100
AcDbScale
 70
     0
300
8:1
140
8.0
141
1.0
290
     0
  0
SCALE
  5
57
102
{ACAD_REACTORS
330
47
102
}
330
47
100
AcDbScale
 70
     0
300
10:1
140
10.0
141
1.0
290
     0
  0
SCALE
  5
58
102
{ACAD_REACTORS
330
47
102
}
330
47
100
AcDbScale
 70
     0
300
100:1
140
100.0
141
1.0
290
     0
  0
SCALE
  5
59
102
{ACAD_REACTORS
330
47
102
}
330
47
100
AcDbScale
 70
     0
300
1/128" = 1'-0"
140
0.0078125
141
12.0
290
     0
  0
SCALE
  5
5A
102
{ACAD_REACTORS
330
47
102
}
330
47
100
AcDbScale
 70
     0
300
1/64" = 1'-0"
140
0.015625
141
12.0
290
     0
  0
SCALE
  5
5B
102
{ACAD_REACTORS
330
47
102
}
330
47
100
AcDbScale
 70
     0
300
1/32" = 1'-0"
140
0.03125
141
12.0
290
     0
  0
SCALE
  5
5C
102
{ACAD_REACTORS
330
47
102
}
330
47
100
AcDbScale
 70
     0
300
1/16" = 1'-0"
140
0.0625
141
12.0
290
     0
  0
SCALE
  5
5D
102
{ACAD_REACTORS
330
47
102
}
330
47
100
AcDbScale
 70
     0
300
3/32" = 1'-0"
140
0.09375
141
12.0
290
     0
  0
SCALE
  5
5E
102
{ACAD_REACTORS
330
47
102
}
330
47
100
AcDbScale
 70
     0
300
1/8" = 1'-0"
140
0.125
141
12.0
290
     0
  0
SCALE
  5
5F
102
{ACAD_REACTORS
330
47
102
}
330
47
100
AcDbScale
 70
     0
300
3/16" = 1'-0"
140
0.1875
141
12.0
290
     0
  0
SCALE
  5
60
102
{ACAD_REACTORS
330
47
102
}
330
47
100
AcDbScale
 70
     0
300
1/4" = 1'-0"
140
0.25
141
12.0
290
     0
  0
SCALE
  5
61
102
{ACAD_REACTORS
330
47
102
}
330
47
100
AcDbScale
 70
     0
300
3/8" = 1'-0"
140
0.375
141
12.0
290
     0
  0
SCALE
  5
62
102
{ACAD_REACTORS
330
47
102
}
330
47
100
AcDbScale
 70
     0
300
1/2" = 1'-0"
140
0.5
141
12.0
290
     0
  0
SCALE
  5
63
102
{ACAD_REACTORS
330
47
102
}
330
47
100
AcDbScale
 70
     0
300
3/4" = 1'-0"
140
0.75
141
12.0
290
     0
  0
SCALE
  5
64
102
{ACAD_REACTORS
330
47
102
}
330
47
100
AcDbScale
 70
     0
300
1" = 1'-0"
140
1.0
141
12.0
290
     0
  0
SCALE
  5
65
102
{ACAD_REACTORS
330
47
102
}
330
47
100
AcDbScale
 70
     0
300
1-1/2" = 1'-0"
140
1.5
141
12.0
290
     0
  0
SCALE
  5
66
102
{ACAD_REACTORS
330
47
102
}
330
47
100
AcDbScale
 70
     0
300
3" = 1'-0"
140
3.0
141
12.0
290
     0
  0
SCALE
  5
67
102
{ACAD_REACTORS
330
47
102
}
330
47
100
AcDbScale
 70
     0
300
6" = 1'-0"
140
6.0
141
12.0
290
     0
  0
SCALE
  5
68
102
{ACAD_REACTORS
330
47
102
}
330
47
100
AcDbScale
 70
     0
300
1'-0" = 1'-0"
140
12.0
141
12.0
290
     0
  0
ENDSEC
  0
EOF
